ISO-10303-21;
HEADER;
FILE_DESCRIPTION(('Creo Elements/Direct Modeling STEP Export'),'2;1');
FILE_NAME(
'C:/Users/TECCAD~1/AppData/Local/Temp/0ln7uvk4pr4sj8b3496/0ln7uvk4pr4sjc
c3496','2019-03-22T 9:50:27',(''),(''),
'PTC Creo Elements/Direct Modeling STEP processor for AP214 (Solid Model
)',
'PTC Creo Elements/Direct Modeling 19.0E  27-Jun-2016 (C) Parametric Tec
hnology GmbH','');
FILE_SCHEMA(('AUTOMOTIVE_DESIGN { 1 0 10303 214 1 1 1 1 }'));
ENDSEC;
DATA;
#10=CARTESIAN_POINT('',(51.312048,46.825278,75.4284126040313));
#20=DIRECTION('',(0.,0.,1.));
#30=DIRECTION('',(0.,-1.,0.));
#40=AXIS2_PLACEMENT_3D('',#10,#20,#30);
#50=CYLINDRICAL_SURFACE('',#40,3.00000000000006);
#60=CARTESIAN_POINT('',(51.312048,43.8252779999999,75.4284126040313));
#70=DIRECTION('',(0.,0.,1.));
#80=VECTOR('',#70,1.);
#90=LINE('',#60,#80);
#100=CARTESIAN_POINT('',(51.312048,43.8252779999999,74.717087738626));
#110=VERTEX_POINT('',#100);
#120=CARTESIAN_POINT('',(51.312048,43.8252779999999,76.1397374694365));
#130=VERTEX_POINT('',#120);
#140=EDGE_CURVE('',#110,#130,#90,.T.);
#150=ORIENTED_EDGE('',*,*,#140,.F.);
#160=CARTESIAN_POINT('',(51.312048,46.825278,76.1397374694365));
#170=DIRECTION('',(0.,0.,1.));
#180=DIRECTION('',(0.,1.,0.));
#190=AXIS2_PLACEMENT_3D('',#160,#170,#180);
#200=CIRCLE('',#190,3.00000000000006);
#210=CARTESIAN_POINT('',(51.312048,49.8252780000001,76.1397374694365));
#220=VERTEX_POINT('',#210);
#230=EDGE_CURVE('',#130,#220,#200,.T.);
#240=ORIENTED_EDGE('',*,*,#230,.F.);
#250=CARTESIAN_POINT('',(51.312048,49.8252780000001,75.4284126040313));
#260=DIRECTION('',(0.,0.,1.));
#270=VECTOR('',#260,1.);
#280=LINE('',#250,#270);
#290=CARTESIAN_POINT('',(51.312048,49.8252780000001,74.717087738626));
#300=VERTEX_POINT('',#290);
#310=EDGE_CURVE('',#300,#220,#280,.T.);
#320=ORIENTED_EDGE('',*,*,#310,.T.);
#330=CARTESIAN_POINT('',(51.312048,46.825278,74.717087738626));
#340=DIRECTION('',(0.,0.,1.));
#350=DIRECTION('',(0.,1.,0.));
#360=AXIS2_PLACEMENT_3D('',#330,#340,#350);
#370=CIRCLE('',#360,3.00000000000006);
#380=EDGE_CURVE('',#110,#300,#370,.T.);
#390=ORIENTED_EDGE('',*,*,#380,.T.);
#400=EDGE_LOOP('',(#390,#320,#240,#150));
#410=FACE_OUTER_BOUND('',#400,.T.);
#420=ADVANCED_FACE('',(#410),#50,.T.);
#430=CARTESIAN_POINT('',(51.312048,46.825278,74.717087738626));
#440=DIRECTION('',(0.,0.,1.));
#450=DIRECTION('',(0.,-1.,0.));
#460=AXIS2_PLACEMENT_3D('',#430,#440,#450);
#470=CONICAL_SURFACE('',#460,3.00000000000006,1.04719755119669);
#480=CARTESIAN_POINT('',(51.312048,43.8252779999999,74.717087738626));
#490=DIRECTION('',(0.,-0.866025403784487,0.499999999999917));
#500=VECTOR('',#490,3.46410161513763);
#510=LINE('',#480,#500);
#520=CARTESIAN_POINT('',(51.312048,44.825278,74.1397374694365));
#530=VERTEX_POINT('',#520);
#540=EDGE_CURVE('',#530,#110,#510,.T.);
#550=ORIENTED_EDGE('',*,*,#540,.F.);
#560=ORIENTED_EDGE('',*,*,#380,.F.);
#570=CARTESIAN_POINT('',(51.312048,49.8252780000001,74.717087738626));
#580=DIRECTION('',(0.,0.866025403784487,0.499999999999917));
#590=VECTOR('',#580,3.46410161513763);
#600=LINE('',#570,#590);
#610=CARTESIAN_POINT('',(51.312048,48.825278,74.1397374694365));
#620=VERTEX_POINT('',#610);
#630=EDGE_CURVE('',#620,#300,#600,.T.);
#640=ORIENTED_EDGE('',*,*,#630,.T.);
#650=CARTESIAN_POINT('',(51.312048,46.825278,74.1397374694365));
#660=DIRECTION('',(0.,0.,1.));
#670=DIRECTION('',(0.,1.,0.));
#680=AXIS2_PLACEMENT_3D('',#650,#660,#670);
#690=CIRCLE('',#680,2.00000000000003);
#700=EDGE_CURVE('',#530,#620,#690,.T.);
#710=ORIENTED_EDGE('',*,*,#700,.T.);
#720=EDGE_LOOP('',(#710,#640,#560,#550));
#730=FACE_OUTER_BOUND('',#720,.T.);
#740=ADVANCED_FACE('',(#730),#470,.T.);
#750=CARTESIAN_POINT('',(51.312048,46.825278,71.1397374694365));
#760=DIRECTION('',(0.,0.,1.));
#770=DIRECTION('',(0.,-1.,0.));
#780=AXIS2_PLACEMENT_3D('',#750,#760,#770);
#790=CYLINDRICAL_SURFACE('',#780,2.00000000000004);
#800=CARTESIAN_POINT('',(51.312048,44.825278,71.1397374694365));
#810=DIRECTION('',(0.,0.,1.));
#820=VECTOR('',#810,1.);
#830=LINE('',#800,#820);
#840=CARTESIAN_POINT('',(51.312048,44.825278,68.1397374694365));
#850=VERTEX_POINT('',#840);
#860=EDGE_CURVE('',#850,#530,#830,.T.);
#870=ORIENTED_EDGE('',*,*,#860,.F.);
#880=ORIENTED_EDGE('',*,*,#700,.F.);
#890=CARTESIAN_POINT('',(51.312048,48.825278,71.1397374694365));
#900=DIRECTION('',(0.,0.,1.));
#910=VECTOR('',#900,1.);
#920=LINE('',#890,#910);
#930=CARTESIAN_POINT('',(51.312048,48.825278,68.1397374694365));
#940=VERTEX_POINT('',#930);
#950=EDGE_CURVE('',#940,#620,#920,.T.);
#960=ORIENTED_EDGE('',*,*,#950,.T.);
#970=CARTESIAN_POINT('',(51.312048,46.825278,68.1397374694365));
#980=DIRECTION('',(0.,0.,1.));
#990=DIRECTION('',(0.,1.,0.));
#1000=AXIS2_PLACEMENT_3D('',#970,#980,#990);
#1010=CIRCLE('',#1000,2.00000000000006);
#1020=EDGE_CURVE('',#850,#940,#1010,.T.);
#1030=ORIENTED_EDGE('',*,*,#1020,.T.);
#1040=EDGE_LOOP('',(#1030,#960,#880,#870));
#1050=FACE_OUTER_BOUND('',#1040,.T.);
#1060=ADVANCED_FACE('',(#1050),#790,.T.);
#1070=CARTESIAN_POINT('',(51.312048,46.825278,67.1397374694365));
#1080=DIRECTION('',(0.,0.,-1.));
#1090=DIRECTION('',(0.,1.,0.));
#1100=AXIS2_PLACEMENT_3D('',#1070,#1080,#1090);
#1110=CONICAL_SURFACE('',#1100,3.00000000000006,0.785398163397448);
#1120=CARTESIAN_POINT('',(51.312048,43.8252779999999,67.1397374694365));
#1130=DIRECTION('',(0.,-0.707106781186548,-0.707106781186548));
#1140=VECTOR('',#1130,4.24264068711937);
#1150=LINE('',#1120,#1140);
#1160=CARTESIAN_POINT('',(51.312048,43.8252779999999,67.1397374694365));
#1170=VERTEX_POINT('',#1160);
#1180=EDGE_CURVE('',#850,#1170,#1150,.T.);
#1190=ORIENTED_EDGE('',*,*,#1180,.T.);
#1200=ORIENTED_EDGE('',*,*,#1020,.F.);
#1210=CARTESIAN_POINT('',(51.312048,49.8252780000001,67.1397374694365));
#1220=DIRECTION('',(0.,0.707106781186548,-0.707106781186548));
#1230=VECTOR('',#1220,4.24264068711937);
#1240=LINE('',#1210,#1230);
#1250=CARTESIAN_POINT('',(51.312048,49.8252780000001,67.1397374694365));
#1260=VERTEX_POINT('',#1250);
#1270=EDGE_CURVE('',#940,#1260,#1240,.T.);
#1280=ORIENTED_EDGE('',*,*,#1270,.F.);
#1290=CARTESIAN_POINT('',(51.312048,46.825278,67.1397374694365));
#1300=DIRECTION('',(0.,0.,1.));
#1310=DIRECTION('',(0.,1.,0.));
#1320=AXIS2_PLACEMENT_3D('',#1290,#1300,#1310);
#1330=CIRCLE('',#1320,3.00000000000006);
#1340=EDGE_CURVE('',#1170,#1260,#1330,.T.);
#1350=ORIENTED_EDGE('',*,*,#1340,.T.);
#1360=EDGE_LOOP('',(#1350,#1280,#1200,#1190));
#1370=FACE_OUTER_BOUND('',#1360,.T.);
#1380=ADVANCED_FACE('',(#1370),#1110,.T.);
#1390=CARTESIAN_POINT('',(51.312048,46.825278,66.4397374694366));
#1400=DIRECTION('',(0.,0.,1.));
#1410=DIRECTION('',(0.,-1.,0.));
#1420=AXIS2_PLACEMENT_3D('',#1390,#1400,#1410);
#1430=CYLINDRICAL_SURFACE('',#1420,3.00000000000006);
#1440=CARTESIAN_POINT('',(51.312048,43.8252779999999,66.4397374694366));
#1450=DIRECTION('',(0.,0.,1.));
#1460=VECTOR('',#1450,1.);
#1470=LINE('',#1440,#1460);
#1480=CARTESIAN_POINT('',(51.312048,43.8252779999999,65.7397374694365));
#1490=VERTEX_POINT('',#1480);
#1500=EDGE_CURVE('',#1490,#1170,#1470,.T.);
#1510=ORIENTED_EDGE('',*,*,#1500,.F.);
#1520=ORIENTED_EDGE('',*,*,#1340,.F.);
#1530=CARTESIAN_POINT('',(51.312048,49.8252780000001,66.4397374694366));
#1540=DIRECTION('',(0.,0.,1.));
#1550=VECTOR('',#1540,1.);
#1560=LINE('',#1530,#1550);
#1570=CARTESIAN_POINT('',(51.312048,49.8252780000001,65.7397374694365));
#1580=VERTEX_POINT('',#1570);
#1590=EDGE_CURVE('',#1580,#1260,#1560,.T.);
#1600=ORIENTED_EDGE('',*,*,#1590,.T.);
#1610=CARTESIAN_POINT('',(51.312048,46.825278,65.7397374694365));
#1620=DIRECTION('',(0.,0.,1.));
#1630=DIRECTION('',(0.,1.,0.));
#1640=AXIS2_PLACEMENT_3D('',#1610,#1620,#1630);
#1650=CIRCLE('',#1640,3.00000000000006);
#1660=EDGE_CURVE('',#1490,#1580,#1650,.T.);
#1670=ORIENTED_EDGE('',*,*,#1660,.T.);
#1680=EDGE_LOOP('',(#1670,#1600,#1520,#1510));
#1690=FACE_OUTER_BOUND('',#1680,.T.);
#1700=ADVANCED_FACE('',(#1690),#1430,.T.);
#1710=CARTESIAN_POINT('',(51.312048,46.825278,65.7397374694365));
#1720=DIRECTION('',(0.,0.,1.));
#1730=DIRECTION('',(0.,-1.,0.));
#1740=AXIS2_PLACEMENT_3D('',#1710,#1720,#1730);
#1750=CONICAL_SURFACE('',#1740,3.00000000000006,0.785398163397457);
#1760=CARTESIAN_POINT('',(51.312048,49.8252780000001,65.7397374694365));
#1770=DIRECTION('',(0.,0.707106781186553,0.707106781186542));
#1780=VECTOR('',#1770,4.24264068711933);
#1790=LINE('',#1760,#1780);
#1800=CARTESIAN_POINT('',(51.312048,48.8252780000001,64.7397374694366));
#1810=VERTEX_POINT('',#1800);
#1820=EDGE_CURVE('',#1810,#1580,#1790,.T.);
#1830=ORIENTED_EDGE('',*,*,#1820,.F.);
#1840=EDGE_CURVE('',#1580,#1490,#1650,.T.);
#1850=ORIENTED_EDGE('',*,*,#1840,.F.);
#1860=CARTESIAN_POINT('',(51.312048,43.8252779999999,65.7397374694365));
#1870=DIRECTION('',(0.,-0.707106781186553,0.707106781186542));
#1880=VECTOR('',#1870,4.24264068711933);
#1890=LINE('',#1860,#1880);
#1900=CARTESIAN_POINT('',(51.312048,44.8252779999999,64.7397374694366));
#1910=VERTEX_POINT('',#1900);
#1920=EDGE_CURVE('',#1910,#1490,#1890,.T.);
#1930=ORIENTED_EDGE('',*,*,#1920,.T.);
#1940=CARTESIAN_POINT('',(51.312048,46.825278,64.7397374694366));
#1950=DIRECTION('',(0.,0.,1.));
#1960=DIRECTION('',(0.,-1.,0.));
#1970=AXIS2_PLACEMENT_3D('',#1940,#1950,#1960);
#1980=CIRCLE('',#1970,2.00000000000011);
#1990=EDGE_CURVE('',#1810,#1910,#1980,.T.);
#2000=ORIENTED_EDGE('',*,*,#1990,.T.);
#2010=EDGE_LOOP('',(#2000,#1930,#1850,#1830));
#2020=FACE_OUTER_BOUND('',#2010,.T.);
#2030=ADVANCED_FACE('',(#2020),#1750,.T.);
#2040=CARTESIAN_POINT('',(51.312048,46.825278,49.1397374694366));
#2050=DIRECTION('',(0.,0.,-1.));
#2060=DIRECTION('',(-1.,0.,0.));
#2070=AXIS2_PLACEMENT_3D('',#2040,#2050,#2060);
#2080=SPHERICAL_SURFACE('',#2070,2.);
#2090=CARTESIAN_POINT('',(51.312048,46.825278,49.1397374694366));
#2100=DIRECTION('',(0.,1.,0.));
#2110=DIRECTION('',(1.,0.,0.));
#2120=AXIS2_PLACEMENT_3D('',#2090,#2100,#2110);
#2130=CIRCLE('',#2120,2.);
#2140=CARTESIAN_POINT('',(53.312048,46.825278,49.1397374694366));
#2150=VERTEX_POINT('',#2140);
#2160=CARTESIAN_POINT('',(51.312048,46.825278,47.1397374694366));
#2170=VERTEX_POINT('',#2160);
#2180=EDGE_CURVE('',#2150,#2170,#2130,.T.);
#2190=ORIENTED_EDGE('',*,*,#2180,.F.);
#2200=CARTESIAN_POINT('',(49.312048,46.825278,49.1397374694366));
#2210=VERTEX_POINT('',#2200);
#2220=EDGE_CURVE('',#2170,#2210,#2130,.T.);
#2230=ORIENTED_EDGE('',*,*,#2220,.F.);
#2240=CARTESIAN_POINT('',(51.312048,46.825278,49.1397374694366));
#2250=DIRECTION('',(0.,0.,1.));
#2260=DIRECTION('',(0.,-1.,0.));
#2270=AXIS2_PLACEMENT_3D('',#2240,#2250,#2260);
#2280=CIRCLE('',#2270,2.00000000000011);
#2290=CARTESIAN_POINT('',(51.312048,44.8252779999999,49.1397374694366));
#2300=VERTEX_POINT('',#2290);
#2310=EDGE_CURVE('',#2210,#2300,#2280,.T.);
#2320=ORIENTED_EDGE('',*,*,#2310,.F.);
#2330=EDGE_CURVE('',#2300,#2150,#2280,.T.);
#2340=ORIENTED_EDGE('',*,*,#2330,.F.);
#2350=EDGE_LOOP('',(#2340,#2320,#2230,#2190));
#2360=FACE_OUTER_BOUND('',#2350,.T.);
#2370=ADVANCED_FACE('',(#2360),#2080,.T.);
#2380=CARTESIAN_POINT('',(51.312048,46.825278,76.1397374694365));
#2390=DIRECTION('',(0.,0.,1.));
#2400=DIRECTION('',(0.,-1.,0.));
#2410=AXIS2_PLACEMENT_3D('',#2380,#2390,#2400);
#2420=CONICAL_SURFACE('',#2410,2.25000000000005,0.523598775598343);
#2430=CARTESIAN_POINT('',(51.312048,44.5752779999999,76.1397374694365));
#2440=DIRECTION('',(0.,-0.500000000000038,0.866025403784417));
#2450=VECTOR('',#2440,4.49999999999975);
#2460=LINE('',#2430,#2450);
#2470=CARTESIAN_POINT('',(51.312048,45.400278,74.7107955531922));
#2480=VERTEX_POINT('',#2470);
#2490=CARTESIAN_POINT('',(51.312048,44.5752779999999,76.1397374694365));
#2500=VERTEX_POINT('',#2490);
#2510=EDGE_CURVE('',#2480,#2500,#2460,.T.);
#2520=ORIENTED_EDGE('',*,*,#2510,.T.);
#2530=CARTESIAN_POINT('',(51.312048,46.825278,74.7107955531922));
#2540=DIRECTION('',(0.,0.,1.));
#2550=DIRECTION('',(0.,1.,0.));
#2560=AXIS2_PLACEMENT_3D('',#2530,#2540,#2550);
#2570=CIRCLE('',#2560,1.42499999999996);
#2580=CARTESIAN_POINT('',(51.312048,48.250278,74.7107955531922));
#2590=VERTEX_POINT('',#2580);
#2600=EDGE_CURVE('',#2480,#2590,#2570,.T.);
#2610=ORIENTED_EDGE('',*,*,#2600,.F.);
#2620=CARTESIAN_POINT('',(51.312048,49.075278,76.1397374694365));
#2630=DIRECTION('',(0.,0.500000000000038,0.866025403784417));
#2640=VECTOR('',#2630,4.49999999999975);
#2650=LINE('',#2620,#2640);
#2660=CARTESIAN_POINT('',(51.312048,49.075278,76.1397374694365));
#2670=VERTEX_POINT('',#2660);
#2680=EDGE_CURVE('',#2590,#2670,#2650,.T.);
#2690=ORIENTED_EDGE('',*,*,#2680,.F.);
#2700=CARTESIAN_POINT('',(51.312048,46.825278,76.1397374694365));
#2710=DIRECTION('',(0.,0.,1.));
#2720=DIRECTION('',(0.,1.,0.));
#2730=AXIS2_PLACEMENT_3D('',#2700,#2710,#2720);
#2740=CIRCLE('',#2730,2.25000000000005);
#2750=EDGE_CURVE('',#2500,#2670,#2740,.T.);
#2760=ORIENTED_EDGE('',*,*,#2750,.T.);
#2770=EDGE_LOOP('',(#2760,#2690,#2610,#2520));
#2780=FACE_OUTER_BOUND('',#2770,.T.);
#2790=ADVANCED_FACE('',(#2780),#2420,.F.);
#2800=CARTESIAN_POINT('',(51.312048,49.4502780000001,76.1397374694365));
#2810=DIRECTION('',(-0.,0.,1.));
#2820=DIRECTION('',(0.,-1.,0.));
#2830=AXIS2_PLACEMENT_3D('',#2800,#2810,#2820);
#2840=PLANE('',#2830);
#2850=EDGE_CURVE('',#220,#130,#200,.T.);
#2860=ORIENTED_EDGE('',*,*,#2850,.T.);
#2870=ORIENTED_EDGE('',*,*,#230,.T.);
#2880=EDGE_LOOP('',(#2870,#2860));
#2890=FACE_OUTER_BOUND('',#2880,.T.);
#2900=EDGE_CURVE('',#2670,#2500,#2740,.T.);
#2910=ORIENTED_EDGE('',*,*,#2900,.F.);
#2920=ORIENTED_EDGE('',*,*,#2750,.F.);
#2930=EDGE_LOOP('',(#2920,#2910));
#2940=FACE_BOUND('',#2930,.T.);
#2950=ADVANCED_FACE('',(#2890,#2940),#2840,.T.);
#2960=CARTESIAN_POINT('',(51.312048,46.825278,66.5397374694365));
#2970=DIRECTION('',(0.,0.,1.));
#2980=DIRECTION('',(-1.,0.,0.));
#2990=AXIS2_PLACEMENT_3D('',#2960,#2970,#2980);
#3000=PLANE('',#2990);
#3010=CARTESIAN_POINT('',(51.312048,46.825278,66.5397374694365));
#3020=DIRECTION('',(0.,0.,-1.));
#3030=DIRECTION('',(0.,1.,0.));
#3040=AXIS2_PLACEMENT_3D('',#3010,#3020,#3030);
#3050=CIRCLE('',#3040,1.42499999999996);
#3060=CARTESIAN_POINT('',(51.312048,48.250278,66.5397374694365));
#3070=VERTEX_POINT('',#3060);
#3080=CARTESIAN_POINT('',(51.312048,45.400278,66.5397374694365));
#3090=VERTEX_POINT('',#3080);
#3100=EDGE_CURVE('',#3070,#3090,#3050,.T.);
#3110=ORIENTED_EDGE('',*,*,#3100,.F.);
#3120=EDGE_CURVE('',#3090,#3070,#3050,.T.);
#3130=ORIENTED_EDGE('',*,*,#3120,.F.);
#3140=EDGE_LOOP('',(#3130,#3110));
#3150=FACE_OUTER_BOUND('',#3140,.T.);
#3160=ADVANCED_FACE('',(#3150),#3000,.T.);
#3170=CARTESIAN_POINT('',(51.312048,46.825278,56.4361840788433));
#3180=DIRECTION('',(0.,0.,1.));
#3190=DIRECTION('',(0.,-1.,0.));
#3200=AXIS2_PLACEMENT_3D('',#3170,#3180,#3190);
#3210=CYLINDRICAL_SURFACE('',#3200,2.00000000000011);
#3220=CARTESIAN_POINT('',(51.312048,44.8252779999999,56.4361840788433));
#3230=DIRECTION('',(0.,0.,1.));
#3240=VECTOR('',#3230,1.);
#3250=LINE('',#3220,#3240);
#3260=CARTESIAN_POINT('',(51.312048,44.8252779999999,53.1397374694365));
#3270=VERTEX_POINT('',#3260);
#3280=EDGE_CURVE('',#2300,#3270,#3250,.T.);
#3290=ORIENTED_EDGE('',*,*,#3280,.F.);
#3300=CARTESIAN_POINT('',(51.312048,46.825278,53.1397374694365));
#3310=DIRECTION('',(0.,0.,1.));
#3320=DIRECTION('',(0.,-1.,0.));
#3330=AXIS2_PLACEMENT_3D('',#3300,#3310,#3320);
#3340=CIRCLE('',#3330,2.00000000000011);
#3350=CARTESIAN_POINT('',(51.312048,48.8252780000001,53.1397374694365));
#3360=VERTEX_POINT('',#3350);
#3370=EDGE_CURVE('',#3270,#3360,#3340,.T.);
#3380=ORIENTED_EDGE('',*,*,#3370,.F.);
#3390=CARTESIAN_POINT('',(51.312048,48.8252780000001,56.4361840788433));
#3400=DIRECTION('',(0.,0.,1.));
#3410=VECTOR('',#3400,1.);
#3420=LINE('',#3390,#3410);
#3430=CARTESIAN_POINT('',(51.312048,48.8252780000001,49.1397374694366));
#3440=VERTEX_POINT('',#3430);
#3450=EDGE_CURVE('',#3440,#3360,#3420,.T.);
#3460=ORIENTED_EDGE('',*,*,#3450,.T.);
#3470=EDGE_CURVE('',#2150,#3440,#2280,.T.);
#3480=ORIENTED_EDGE('',*,*,#3470,.T.);
#3490=ORIENTED_EDGE('',*,*,#2330,.T.);
#3500=EDGE_LOOP('',(#3490,#3480,#3460,#3380,#3290));
#3510=FACE_OUTER_BOUND('',#3500,.T.);
#3520=ADVANCED_FACE('',(#3510),#3210,.T.);
#3530=CARTESIAN_POINT('',(51.312048,46.825278,56.4361840788433));
#3540=DIRECTION('',(0.,0.,1.));
#3550=DIRECTION('',(0.,-1.,0.));
#3560=AXIS2_PLACEMENT_3D('',#3530,#3540,#3550);
#3570=CYLINDRICAL_SURFACE('',#3560,2.00000000000011);
#3580=CARTESIAN_POINT('',(51.312048,48.8252780000001,56.4361840788433));
#3590=DIRECTION('',(0.,0.,1.));
#3600=VECTOR('',#3590,1.);
#3610=LINE('',#3580,#3600);
#3620=EDGE_CURVE('',#3360,#1810,#3610,.T.);
#3630=ORIENTED_EDGE('',*,*,#3620,.F.);
#3640=ORIENTED_EDGE('',*,*,#1990,.F.);
#3650=CARTESIAN_POINT('',(51.312048,44.8252779999999,56.4361840788433));
#3660=DIRECTION('',(0.,0.,1.));
#3670=VECTOR('',#3660,1.);
#3680=LINE('',#3650,#3670);
#3690=EDGE_CURVE('',#3270,#1910,#3680,.T.);
#3700=ORIENTED_EDGE('',*,*,#3690,.T.);
#3710=EDGE_CURVE('',#3360,#3270,#3340,.T.);
#3720=ORIENTED_EDGE('',*,*,#3710,.T.);
#3730=EDGE_LOOP('',(#3720,#3700,#3640,#3630));
#3740=FACE_OUTER_BOUND('',#3730,.T.);
#3750=ADVANCED_FACE('',(#3740),#3570,.T.);
#3760=CARTESIAN_POINT('',(51.312048,46.825278,70.6252665113144));
#3770=DIRECTION('',(0.,0.,-1.));
#3780=DIRECTION('',(0.,1.,0.));
#3790=AXIS2_PLACEMENT_3D('',#3760,#3770,#3780);
#3800=CYLINDRICAL_SURFACE('',#3790,1.42499999999996);
#3810=CARTESIAN_POINT('',(51.312048,45.400278,70.6252665113144));
#3820=DIRECTION('',(0.,0.,-1.));
#3830=VECTOR('',#3820,1.);
#3840=LINE('',#3810,#3830);
#3850=EDGE_CURVE('',#2480,#3090,#3840,.T.);
#3860=ORIENTED_EDGE('',*,*,#3850,.F.);
#3870=ORIENTED_EDGE('',*,*,#3100,.T.);
#3880=CARTESIAN_POINT('',(51.312048,48.250278,70.6252665113144));
#3890=DIRECTION('',(0.,0.,-1.));
#3900=VECTOR('',#3890,1.);
#3910=LINE('',#3880,#3900);
#3920=EDGE_CURVE('',#2590,#3070,#3910,.T.);
#3930=ORIENTED_EDGE('',*,*,#3920,.T.);
#3940=ORIENTED_EDGE('',*,*,#2600,.T.);
#3950=EDGE_LOOP('',(#3940,#3930,#3870,#3860));
#3960=FACE_OUTER_BOUND('',#3950,.T.);
#3970=ADVANCED_FACE('',(#3960),#3800,.F.);
#3980=CARTESIAN_POINT('',(51.312048,46.825278,76.1397374694365));
#3990=DIRECTION('',(0.,0.,1.));
#4000=DIRECTION('',(0.,-1.,0.));
#4010=AXIS2_PLACEMENT_3D('',#3980,#3990,#4000);
#4020=CONICAL_SURFACE('',#4010,2.25000000000005,0.523598775598343);
#4030=ORIENTED_EDGE('',*,*,#2900,.T.);
#4040=ORIENTED_EDGE('',*,*,#2680,.T.);
#4050=EDGE_CURVE('',#2590,#2480,#2570,.T.);
#4060=ORIENTED_EDGE('',*,*,#4050,.F.);
#4070=ORIENTED_EDGE('',*,*,#2510,.F.);
#4080=EDGE_LOOP('',(#4070,#4060,#4040,#4030));
#4090=FACE_OUTER_BOUND('',#4080,.T.);
#4100=ADVANCED_FACE('',(#4090),#4020,.F.);
#4110=CARTESIAN_POINT('',(51.312048,46.825278,70.6252665113144));
#4120=DIRECTION('',(0.,0.,-1.));
#4130=DIRECTION('',(0.,1.,0.));
#4140=AXIS2_PLACEMENT_3D('',#4110,#4120,#4130);
#4150=CYLINDRICAL_SURFACE('',#4140,1.42499999999996);
#4160=ORIENTED_EDGE('',*,*,#3850,.T.);
#4170=ORIENTED_EDGE('',*,*,#4050,.T.);
#4180=ORIENTED_EDGE('',*,*,#3920,.F.);
#4190=ORIENTED_EDGE('',*,*,#3120,.T.);
#4200=EDGE_LOOP('',(#4190,#4180,#4170,#4160));
#4210=FACE_OUTER_BOUND('',#4200,.T.);
#4220=ADVANCED_FACE('',(#4210),#4150,.F.);
#4230=CARTESIAN_POINT('',(51.312048,46.825278,67.1397374694365));
#4240=DIRECTION('',(0.,0.,-1.));
#4250=DIRECTION('',(0.,1.,0.));
#4260=AXIS2_PLACEMENT_3D('',#4230,#4240,#4250);
#4270=CONICAL_SURFACE('',#4260,3.00000000000006,0.785398163397448);
#4280=EDGE_CURVE('',#940,#850,#1010,.T.);
#4290=ORIENTED_EDGE('',*,*,#4280,.F.);
#4300=ORIENTED_EDGE('',*,*,#1180,.F.);
#4310=EDGE_CURVE('',#1260,#1170,#1330,.T.);
#4320=ORIENTED_EDGE('',*,*,#4310,.T.);
#4330=ORIENTED_EDGE('',*,*,#1270,.T.);
#4340=EDGE_LOOP('',(#4330,#4320,#4300,#4290));
#4350=FACE_OUTER_BOUND('',#4340,.T.);
#4360=ADVANCED_FACE('',(#4350),#4270,.T.);
#4370=CARTESIAN_POINT('',(51.312048,46.825278,74.717087738626));
#4380=DIRECTION('',(0.,0.,1.));
#4390=DIRECTION('',(0.,-1.,0.));
#4400=AXIS2_PLACEMENT_3D('',#4370,#4380,#4390);
#4410=CONICAL_SURFACE('',#4400,3.00000000000006,1.04719755119669);
#4420=EDGE_CURVE('',#620,#530,#690,.T.);
#4430=ORIENTED_EDGE('',*,*,#4420,.T.);
#4440=ORIENTED_EDGE('',*,*,#630,.F.);
#4450=EDGE_CURVE('',#300,#110,#370,.T.);
#4460=ORIENTED_EDGE('',*,*,#4450,.F.);
#4470=ORIENTED_EDGE('',*,*,#540,.T.);
#4480=EDGE_LOOP('',(#4470,#4460,#4440,#4430));
#4490=FACE_OUTER_BOUND('',#4480,.T.);
#4500=ADVANCED_FACE('',(#4490),#4410,.T.);
#4510=CARTESIAN_POINT('',(51.312048,46.825278,65.7397374694365));
#4520=DIRECTION('',(0.,0.,1.));
#4530=DIRECTION('',(0.,-1.,0.));
#4540=AXIS2_PLACEMENT_3D('',#4510,#4520,#4530);
#4550=CONICAL_SURFACE('',#4540,3.00000000000006,0.785398163397457);
#4560=ORIENTED_EDGE('',*,*,#1820,.T.);
#4570=EDGE_CURVE('',#1910,#1810,#1980,.T.);
#4580=ORIENTED_EDGE('',*,*,#4570,.T.);
#4590=ORIENTED_EDGE('',*,*,#1920,.F.);
#4600=ORIENTED_EDGE('',*,*,#1660,.F.);
#4610=EDGE_LOOP('',(#4600,#4590,#4580,#4560));
#4620=FACE_OUTER_BOUND('',#4610,.T.);
#4630=ADVANCED_FACE('',(#4620),#4550,.T.);
#4640=ORIENTED_EDGE('',*,*,#3280,.T.);
#4650=ORIENTED_EDGE('',*,*,#2310,.T.);
#4660=EDGE_CURVE('',#3440,#2210,#2280,.T.);
#4670=ORIENTED_EDGE('',*,*,#4660,.T.);
#4680=ORIENTED_EDGE('',*,*,#3450,.F.);
#4690=ORIENTED_EDGE('',*,*,#3710,.F.);
#4700=EDGE_LOOP('',(#4690,#4680,#4670,#4650,#4640));
#4710=FACE_OUTER_BOUND('',#4700,.T.);
#4720=ADVANCED_FACE('',(#4710),#3570,.T.);
#4730=ORIENTED_EDGE('',*,*,#4570,.F.);
#4740=ORIENTED_EDGE('',*,*,#3620,.T.);
#4750=ORIENTED_EDGE('',*,*,#3370,.T.);
#4760=ORIENTED_EDGE('',*,*,#3690,.F.);
#4770=EDGE_LOOP('',(#4760,#4750,#4740,#4730));
#4780=FACE_OUTER_BOUND('',#4770,.T.);
#4790=ADVANCED_FACE('',(#4780),#3210,.T.);
#4800=CARTESIAN_POINT('',(51.312048,46.825278,71.1397374694365));
#4810=DIRECTION('',(0.,0.,1.));
#4820=DIRECTION('',(0.,-1.,0.));
#4830=AXIS2_PLACEMENT_3D('',#4800,#4810,#4820);
#4840=CYLINDRICAL_SURFACE('',#4830,2.00000000000004);
#4850=ORIENTED_EDGE('',*,*,#4280,.T.);
#4860=ORIENTED_EDGE('',*,*,#950,.F.);
#4870=ORIENTED_EDGE('',*,*,#4420,.F.);
#4880=ORIENTED_EDGE('',*,*,#860,.T.);
#4890=EDGE_LOOP('',(#4880,#4870,#4860,#4850));
#4900=FACE_OUTER_BOUND('',#4890,.T.);
#4910=ADVANCED_FACE('',(#4900),#4840,.T.);
#4920=CARTESIAN_POINT('',(51.312048,46.825278,75.4284126040313));
#4930=DIRECTION('',(0.,0.,1.));
#4940=DIRECTION('',(0.,-1.,0.));
#4950=AXIS2_PLACEMENT_3D('',#4920,#4930,#4940);
#4960=CYLINDRICAL_SURFACE('',#4950,3.00000000000006);
#4970=ORIENTED_EDGE('',*,*,#4450,.T.);
#4980=ORIENTED_EDGE('',*,*,#310,.F.);
#4990=ORIENTED_EDGE('',*,*,#2850,.F.);
#5000=ORIENTED_EDGE('',*,*,#140,.T.);
#5010=EDGE_LOOP('',(#5000,#4990,#4980,#4970));
#5020=FACE_OUTER_BOUND('',#5010,.T.);
#5030=ADVANCED_FACE('',(#5020),#4960,.T.);
#5040=CARTESIAN_POINT('',(51.312048,46.825278,66.4397374694366));
#5050=DIRECTION('',(0.,0.,1.));
#5060=DIRECTION('',(0.,-1.,0.));
#5070=AXIS2_PLACEMENT_3D('',#5040,#5050,#5060);
#5080=CYLINDRICAL_SURFACE('',#5070,3.00000000000006);
#5090=ORIENTED_EDGE('',*,*,#1840,.T.);
#5100=ORIENTED_EDGE('',*,*,#1590,.F.);
#5110=ORIENTED_EDGE('',*,*,#4310,.F.);
#5120=ORIENTED_EDGE('',*,*,#1500,.T.);
#5130=EDGE_LOOP('',(#5120,#5110,#5100,#5090));
#5140=FACE_OUTER_BOUND('',#5130,.T.);
#5150=ADVANCED_FACE('',(#5140),#5080,.T.);
#5160=CARTESIAN_POINT('',(51.312048,46.825278,49.1397374694366));
#5170=DIRECTION('',(0.,0.,-1.));
#5180=DIRECTION('',(-1.,0.,0.));
#5190=AXIS2_PLACEMENT_3D('',#5160,#5170,#5180);
#5200=SPHERICAL_SURFACE('',#5190,2.);
#5210=ORIENTED_EDGE('',*,*,#3470,.F.);
#5220=ORIENTED_EDGE('',*,*,#4660,.F.);
#5230=ORIENTED_EDGE('',*,*,#2220,.T.);
#5240=ORIENTED_EDGE('',*,*,#2180,.T.);
#5250=EDGE_LOOP('',(#5240,#5230,#5220,#5210));
#5260=FACE_OUTER_BOUND('',#5250,.T.);
#5270=ADVANCED_FACE('',(#5260),#5200,.T.);
#5280=CLOSED_SHELL('',(#420,#740,#1060,#1380,#1700,#2030,#2370,#2790,
#2950,#3160,#3520,#3750,#3970,#4100,#4220,#4360,#4500,#4630,#4720,#4790,
#4910,#5030,#5150,#5270));
#5290=MANIFOLD_SOLID_BREP('',#5280);
#5300=CARTESIAN_POINT('',(0.,0.,0.));
#5310=DIRECTION('',(0.,0.,1.));
#5320=DIRECTION('',(1.,0.,0.));
#5330=AXIS2_PLACEMENT_3D('',#5300,#5310,#5320);
#5340=APPLICATION_CONTEXT(' ');
#5350=APPLICATION_PROTOCOL_DEFINITION(' ','automotive_design',1998,#5340
);
#5360=PRODUCT_CONTEXT('',#5340,'mechanical');
#5370=PRODUCT_DEFINITION_CONTEXT('part definition',#5340,'design');
#5380=PRODUCT('RXM2D_4-0','RXM2D_4-0','',(#5360));
#5390=PRODUCT_RELATED_PRODUCT_CATEGORY('part',' ',(#5380));
#5400=PRODUCT_DEFINITION_FORMATION_WITH_SPECIFIED_SOURCE('','',#5380,
.BOUGHT.);
#5410=PRODUCT_DEFINITION('',' ',#5400,#5370);
#5420=PRODUCT_DEFINITION_SHAPE('','',#5410);
#5430=DIMENSIONAL_EXPONENTS(1.,0.,0.,0.,0.,0.,0.);
#5440=DIMENSIONAL_EXPONENTS(0.,0.,0.,0.,0.,0.,0.);
#5450=DIMENSIONAL_EXPONENTS(0.,0.,0.,0.,0.,0.,0.);
#5460=(LENGTH_UNIT() NAMED_UNIT(*) SI_UNIT(.MILLI.,.METRE.));
#5470=(NAMED_UNIT(*) PLANE_ANGLE_UNIT() SI_UNIT($,.RADIAN.));
#5480=(NAMED_UNIT(*) SI_UNIT($,.STERADIAN.) SOLID_ANGLE_UNIT());
#5490=(GEOMETRIC_REPRESENTATION_CONTEXT(3) 
GLOBAL_UNCERTAINTY_ASSIGNED_CONTEXT((#5500)) 
GLOBAL_UNIT_ASSIGNED_CONTEXT((#5460,#5470,#5480)) REPRESENTATION_CONTEXT
('',''));
#5500=UNCERTAINTY_MEASURE_WITH_UNIT(LENGTH_MEASURE(1.E-6),#5460,
'distance_accuracy_value','maximum gap value');
#5510=ADVANCED_BREP_SHAPE_REPRESENTATION('',(#5330,#5290),#5490);
#5520=SHAPE_DEFINITION_REPRESENTATION(#5420,#5510);
#5530=COLOUR_RGB('',1.,0.784313797950745,0.);
#5540=FILL_AREA_STYLE_COLOUR('',#5530);
#5550=FILL_AREA_STYLE('',(#5540));
#5560=SURFACE_STYLE_FILL_AREA(#5550);
#5570=SURFACE_SIDE_STYLE('',(#5560));
#5580=SURFACE_STYLE_USAGE(.BOTH.,#5570);
#5590=PRESENTATION_STYLE_ASSIGNMENT((#5580));
#5600=STYLED_ITEM('',(#5590),#5290);
#5610=DRAUGHTING_MODEL('',(#5600),#5490);
#5620=CARTESIAN_POINT('',(-51.0852250000001,46.9797929999999,
76.1397374694365));
#5630=DIRECTION('',(0.,0.,-1.));
#5640=DIRECTION('',(1.,0.,0.));
#5650=AXIS2_PLACEMENT_3D('',#5620,#5630,#5640);
#5660=ITEM_DEFINED_TRANSFORMATION('RXM2D_4-0','',#5330,#5650);
#5670=APPLICATION_CONTEXT(' ');
#5680=APPLICATION_PROTOCOL_DEFINITION(' ','automotive_design',1998,#5670
);
#5690=PRODUCT_CONTEXT('',#5670,'mechanical');
#5700=PRODUCT_DEFINITION_CONTEXT('part definition',#5670,'design');
#5710=PRODUCT('RXM2D_4-0','RXM2D_4-0','',(#5690));
#5720=PRODUCT_RELATED_PRODUCT_CATEGORY('part',' ',(#5710));
#5730=PRODUCT_DEFINITION_FORMATION_WITH_SPECIFIED_SOURCE('','',#5710,
.BOUGHT.);
#5740=PRODUCT_DEFINITION('',' ',#5730,#5700);
#5750=PRODUCT_DEFINITION_SHAPE('','',#5740);
#5760=DIMENSIONAL_EXPONENTS(1.,0.,0.,0.,0.,0.,0.);
#5770=DIMENSIONAL_EXPONENTS(0.,0.,0.,0.,0.,0.,0.);
#5780=DIMENSIONAL_EXPONENTS(0.,0.,0.,0.,0.,0.,0.);
#5790=(LENGTH_UNIT() NAMED_UNIT(*) SI_UNIT(.MILLI.,.METRE.));
#5800=(NAMED_UNIT(*) PLANE_ANGLE_UNIT() SI_UNIT($,.RADIAN.));
#5810=(NAMED_UNIT(*) SI_UNIT($,.STERADIAN.) SOLID_ANGLE_UNIT());
#5820=(GEOMETRIC_REPRESENTATION_CONTEXT(3) 
GLOBAL_UNCERTAINTY_ASSIGNED_CONTEXT((#5830)) 
GLOBAL_UNIT_ASSIGNED_CONTEXT((#5790,#5800,#5810)) REPRESENTATION_CONTEXT
('',''));
#5830=UNCERTAINTY_MEASURE_WITH_UNIT(LENGTH_MEASURE(1.E-6),#5790,
'distance_accuracy_value','maximum gap value');
#5840=SHAPE_REPRESENTATION('',(#5330,#5650),#5820);
#5850=SHAPE_DEFINITION_REPRESENTATION(#5750,#5840);
#5860=(REPRESENTATION_RELATIONSHIP('','',#5510,#5840) 
REPRESENTATION_RELATIONSHIP_WITH_TRANSFORMATION(#5660) 
SHAPE_REPRESENTATION_RELATIONSHIP());
#5870=NEXT_ASSEMBLY_USAGE_OCCURRENCE('1','','RXM2D_4-0',#5740,#5410,'');
#5880=PRODUCT_DEFINITION_SHAPE('','',#5870);
#5890=CONTEXT_DEPENDENT_SHAPE_REPRESENTATION(#5860,#5880);
ENDSEC;
END-ISO-10303-21;
